Lyssna   
Hem

Ansök till Riksidrottsgymnasiet i fotboll/futsal senast 1 december

Riksidrottsgymnasiet ger dig en unik chans att göra en elitsatsning i fotboll/futsal inom dövidrotten samtidigt som du klarar dina studier på ett bra sätt.

Din ansökan skickar du till Svenska Dövidrottsförbundet senast den 1 december.

Mer information om Riksidrottsgymnasiet och blankett för ansökan hittar du här.

Aktuellt
  • Student 2018
    Hjärtligt välkomna att ta emot Riksgymnasiets studenter fredagen den 8 juni!
    2018-06-01 16:11 --------------------------------------------------------------------------------------------------------
  • Du kommer väl ihåg att skicka in din ansökan? För att kunna bli antagen till läsåret 2018/2019 måste du skicka in ansökan, tillsammans med bilagor, senast den 15 februari 2018.
    2018-02-12 17:53 --------------------------------------------------------------------------------------------------------
  • Nu kan du anmäla dig till vårens skolbesök
    I april har Riksgymnasiet besöksdagar för elever som ska börja gymnasiet läsåret 2019/2020. Är du nyfiken på Riksgymnasiet och vill veta mer?
    2018-02-05 12:22 --------------------------------------------------------------------------------------------------------
  • Ansök till Riksidrottsgymnasiet i fotboll/futsal senast 1 december
    Riksidrottsgymnasiet ger dig en unik chans att göra en elitsatsning i fotboll/futsal inom dövidrotten samtidigt som du klarar dina studier på ett bra sätt.
    2017-10-25 09:13 --------------------------------------------------------------------------------------------------------
  • Riksgymnasiets Anna-Eva Olsson vinnare av Pedagogiskt pris
    Anna-Eva Olsson har vunnit Örebro kommuns pedagogiska pris 2017.
    2017-08-11 09:14 --------------------------------------------------------------------------------------------------------
  • Studenter från Japan på besök!
    Torsdag den 9 mars fick Riksgymnasiet besök av sju studenter från ett universitet i Tokyo i Japan. Målet med besöket var framför allt att se hur undervisningen för döva fungerar i Sverige.

    2017-03-14 09:21 --------------------------------------------------------------------------------------------------------
  • Vad händer efter studenten? Sandija Nordensten-Karlsson, Patrik Andersson och Roberto Josef.
    Onsdag den 1 februari arrangerades en arbetsmarknadsdag för våra döva elever som tar studenten i sommar.
    2017-02-08 11:37 --------------------------------------------------------------------------------------------------------
  • Att möta elever med språknedsättning
    Intresset var stort när vi för andra året bjöd in skolpersonal, som arbetar med elever i årskurs 6-9, till kompetensdagar om språkstörning.
    2017-02-01 10:49 --------------------------------------------------------------------------------------------------------
  • Följ våra ambassadörer på Instagram Riksgymnasiets ambassadörer Nusreta Mukaca, Charlie Hånberg och Cecilia Björck.
    Hur är det att gå på gymnasiet - på riktigt? På Instagram kan du följa våra ambassadörer, som delar med sig av sin vardag i skolan, boendet och fritiden.
    2016-09-16 10:54 --------------------------------------------------------------------------------------------------------
Publicerad av: Jenny Löfdahl, 2017-10-25 09.13

Riksgymnasiet för döva och hörselskadade | Box 31188, 701 35 Örebro
019-21 10 00 (Örebro kommuns servicecenter) | riksgymnasiet.kansli@orebro.se | Om webbplatsen